Charlie Brown Jr.
(intro)


E|----------------------------------------------------------------|
B|----------------------------------------------------------------|
G|-------9---8------9---8--------9---8--9-----9-8--13/11-11/9-8/9-|
D|---9-9---9---9-9----9------9-9---9-------99---------------------| (4x)
A|-------------------------------------------------11/9--9/7--6/7-|
E|----------------------------------------------------------------|



E|-------------------------------------------------------------|
B|-------------------------------------------------------------|
G|-------9---8-----11-9----8-9-11b--------13p11----11----------|
D|---9-9---9---9-9-------9----------11h13-------13----13-11h13-|
A|-------------------------------------------------------------|
E|-------------------------------------------------------------|



E|----------------------------------------------------|
B|----------------------------------------------------|
G|--------9---8---11-9---9--------9-8--13/11-11/9-8/9-|
D|---9-9----9---9------9---9--9-9---------------------|
A|-------------------------------------11/9--9/7--6/7-|
E|----------------------------------------------------|


(riff 1)

E|-------------------------------------------------------------------------------------------------|
B|-0-0-2-0-4-0-5-0-4-0-2-0-2h4p2p0-0-0-2-0-4-0-5-0-4-0-2-0-5h7p5p0-0-0-2-0-4-0-5-0-4-0-2-0-7h9p7p0-|
G|-------------------------------------------------------------------------------------------------|
D|-------------------------------------------------------------------------------------------------|
A|-------------------------------------------------------------------------------------------------|
E|-------------------------------------------------------------------------------------------------|



E|------------------------------------------------------------------------------------------------|
B|-0-0-2-0-4-0-5-0-4-0-2-0-2h4p2p0-0-0-2-0-4-0-5-0-4-0-2-0-5h7p5p0-0-0-2-0-4-0-5-0-4-0-2-0-7h9p7p0|
G|------------------------------------------------------------------------------------------------|
D|------------------------------------------------------------------------------------------------|
A|------------------------------------------------------------------------------------------------|
E|------------------------------------------------------------------------------------------------|


(riff 2) ("então dorme anjo...")

E|--------------------------------------------------------------|
B|--------------------------------------------------------------|
G|--------------44444444444446666666666666----------------------|
D|-888888888888844444444444446666666666666666666666-------------|
A|-888888888888822222222222224444444444444666666666-------------|
E|-6666666666666--------------------------444444444-7-4-7-4-7-4-|
12-1-tabulasi-charlie-brown-jr|12 + 1|Charlie Brown Jr.|charlie-brown-jr.jpg 121-doze-mais-um-tabulasi-charlie-brown-jr|12+1 (doze mais um)|Charlie Brown Jr.|charlie-brown-jr.jpg 333-tabulasi-charlie-brown-jr|333|Charlie Brown Jr.|charlie-brown-jr.jpg a-banca-tabulasi-charlie-brown-jr|A banca|Charlie Brown Jr.|charlie-brown-jr.jpg a-cera-tabulasi-charlie-brown-jr|A cera|Charlie Brown Jr.|charlie-brown-jr.jpg a-estrada-tabulasi-charlie-brown-jr|A estrada|Charlie Brown Jr.|charlie-brown-jr.jpg a-grande-volta-tabulasi-charlie-brown-jr|A grande volta|Charlie Brown Jr.|charlie-brown-jr.jpg abagabalo-tabulasi-charlie-brown-jr|Abagabalo|Charlie Brown Jr.|charlie-brown-jr.jpg abrir-seus-olhos-tabulasi-charlie-brown-jr|Abrir seus olhos|Charlie Brown Jr.|charlie-brown-jr.jpg aquela-paz-tabulasi-charlie-brown-jr|Aquela paz|Charlie Brown Jr.|charlie-brown-jr.jpg aquele-velho-carteado-e-alguma-manobrinhas-tabulasi-charlie-brown-jr|Aquele velho carteado e alguma manobrinh|Charlie Brown Jr.|charlie-brown-jr.jpg aquele-velho-carteado-e-algumas-manobrinhas-tabulasi-charlie-brown-jr|Aquele Velho Carteado e Algumas Manobrin|Charlie Brown Jr.|charlie-brown-jr.jpg baader-meinhof-blues-tabulasi-charlie-brown-jr|Baader-meinhof blues|Charlie Brown Jr.|charlie-brown-jr.jpg bahia-tabulasi-charlie-brown-jr|Bahia|Charlie Brown Jr.|charlie-brown-jr.jpg be-myself-tabulasi-charlie-brown-jr|Be myself|Charlie Brown Jr.|charlie-brown-jr.jpg 177
tabulasi-ed-sheeran|Ed Sheeran|ed-sheeran.jpg?12 tabulasi-coldplay|Coldplay|coldplay.jpg tabulasi-justin-bieber|Justin Bieber|justin-bieber.jpg tabulasi-bruno-mars|Bruno Mars|bruno-mars.jpg tabulasi-adele|Adele|adele.jpg tabulasi-oasis|Oasis|oasis.jpg tabulasi-red-hot-chili-peppers|Red Hot Chili Peppers|red-hot-chili-peppers.jpg tabulasi-the-beatles|The Beatles|the-beatles.jpg tabulasi-creed|Creed|creed.jpg tabulasi-sia|Sia|sia.jpg tabulasi-nirvana|Nirvana|nirvana.jpg tabulasi-green-day|Green Day|green-day.jpg tabulasi-guns-n-roses|Guns N' Roses|guns-n-roses.jpg tabulasi-jason-mraz|Jason Mraz|jason-mraz.jpg tabulasi-avicii|Avicii|avicii.jpg 50